View Single Post
Old 04-25-2013, 03:42 PM   #77
Requiem
~~~
 
Requiem's Avatar
 
~ ~ ~

Join Date: Feb 2006
Location: Earth Division
Posts: 24,315

Adopt-a-Bronco:
Princes of Tara
Default

Rockin' out so hard as I finish project at work.



Code:
Deftones	The boy's Republic
C-G-C-F-A-D

Intro							  2e partie : dernière fois
|-----------------------------------------------------------------------||----------------------|
|-----------------------------------------------------------------------||----------------------|
|-----------------------------------------------------------------------||----------------------|
|-----7~--7h8p7h8p7h8-7h8p7h8p7h8---------------------------------------||----------------------|
|-------------------------------------8~--9h10p9h10p9h10-9h10p9h10p9h10-||------8/9~---------9~-|
|-0~------------------------------0~------------------------------------||-0~-------------------|
										      ....
Thème
|-------------------------------------------------|
|-------------------------------------------------|
|------14141414~---14--14-7~----7---7-7/111111-11-|
|-0~----0-0-012~---12--12-5~----5---5-5/-9-9-9--9-|
|-0~----0-0-012~---12--12-5~----5---5-5/-9-9-9--9-|
|-0~----0-0-012~---12--12-5~----5---5-5/-9-9-9--9-|

Variante suivant au premier couplet
|----------------------------------------------|
|----------------------------------------------|
|------14141414~---14--14-7~----7~--7-7~----7~-|
|-0~----0-0-012~---12--12-5~----7~--7-7~----7~-|
|-0~----0-0-012~---12--12-5~----5~--5-5~----5~-|
|-0~----0-0-012~---12--12-5~----5~--5-5~----5~-|

Variante suivant au deuxième couplet
|-------------------------------------------------|
|-------------------------------------------------|
|-7-----7---7-7-----7---7-7-----7---7-7-----7---7-|
|-0-----0---0-0-----0---0-7-----7---7-7-----7---7-|
|-0-----0---0-0-----0---0-5-----5---5-5-----5---5-|
|-0-----0---0-0-----0---0-5-----5---5-5-----5---5-|

Refrain
|-------------------------------------------------|
|-------------------------------------------------|
|-5-----5---5-5-----5---5-5-----5---5-5-----------|
|-5-----5---5-5-----5---5-5-----5---5-5---0-0-0-0-|
|-3-----3---3-3-----3---3-3-----3---3-3---0-0-0-0-|
|-3-----3---3-3-----3---3-3-----3---3-3---0-0-0-0-|

Pont (les notes entre () ne sont jouées que la première fois)
|------------------------------------------------------------------------|
|------------------------------------------------------------------------|
|------------------------------------------------------------------------|
|-(0~)-7~--7h8p7h8p7h8-7h8p7h8p7h8---------------------------------------|
|-(0~)---------------------------------8~--9h10p9h10p9h10-9h10p9h10p9h10-|
|--0~--0~--0~----------0~-----------0~-0~--0~-------------0~-------------|

Explosion
|------------------------------------------------------------------------|
|--------------7~--7-7-7-7~--7-7-7-7--------------10~-10101010~-10101010-|
|------------------------------------------------------------------------|
|-0--0--0~--0--4~--4-4-4-4~--4-4-4-4--0--0--0~--0--7~--7-7-7-7~--7-7-7-7-|
|-0--0--0~--0-------------------------0--0--0~--0------------------------|
|-0--0--0~--0-------------------------0--0--0~--0------------------------|

|------------------------------------------------------------------------|
|-------------11~-11111111~-11111111---------------8~--8-8-8-8~--8-8-8---|
|------------------------------------------------------------------------|
|-0--0--0~--0--8~--8-8-8-8~--8-8-8-8--0--0--0~--0--5~--5-5-5-5~--5-5-5-0-|
|-0--0--0~--0-------------------------0--0--0~--0----------------------0-|
|-0--0--0~--0-------------------------0--0--0~--0----------------------0-|

Riff alterné avec le thème lors du dernier couplet
|--------------------------------------------------------------------------------------------------|
|--------------------------------------------------------------------------------------------------|
|------14141414~---14--14-111111111111111111111111-------14141414~---14--14-15151515151514~--1412~-|
|-0~----0-0-012~---12--12---------------------------0~----0-0-012~---12--12------------------------|
|-0~----0-0-012~---12--12--9-9-9-9-9-9-9-9-9-9-9-9--0~----0-0-012~---12--12-13131313131312~--1210~-|
|-0~----0-0-012~---12--12---------------------------0~----0-0-012~---12--12------------------------|

Outro
|--------------------------------------|
|--------------------------------------|
|-11~~~-14~~~-15~~--12~~~--------------|
|--------------------------12~~--------|
|--------------------------------------|
|--0~~---0~~---0~~---0~~----0~~---11~~-|
Requiem is offline   Reply With Quote